Little Girl Lyrics by Syndicate Of Sound


Syndicate Of Sound Lyrics

Little Girl Lyrics
Little Girl
Syndicate of Sound
(Bob Gonzales - Don Baskin)

Intro [electric 12-string]:

v v v v v v v v
---0---0---0---0-|---0---0---0---0-
--0---0---0---0--|--0---0---0---0--
-4---2---1---2---|-4---2---1---2---
-----------------|-----------------
-----------------|-----------------
-----------------|-----------------

Main riff [electric 12-string, tremolo-picked; 2X]:

A D G C G
v v v v v v v v v v v v v v v v
-9-----10----|-7-----8-----|-7-----------|-------------|
-10----10----|-8-----8-----|-8-----------|-------------|
-------------|-------------|-------------|-------------|
-------------|-------------|-------------|-------------|
-------------|-------------|-------------|-------------|
-------------|-------------|-------------|-------------|

Verse 1:

E A D G A
Hey, little girl, you don't have to hide nothin' no more
E A D G A
You didn't do nothin' that hadn't been done before

[main riff, 2X]

Verse 2:

Little girl thought she wouldn't get caught, you see
She thought she'd get away with goin' out on me, yeah

[main riff, 2X]

Verse 3:

Other girls did it, you didn't think of nothin' new
You went out on me, so other girls did it too

[main riff, 2X]

[repeat intro, w/drums]

[main riff, 2X]

Break:

E7 A7 D7 G7
v v v v v v v v
-------------3---|-2-----------1---
-----3---2-------|-----1---0-------
-1---------------|-----------------
-----------------|-----------------
-----------------|-----------------
-----------------|-----------------

Verse 4:

You can leave, little girl, I don't want you 'round no more
If you come knockin', you won't get past my door... yeah!

[main riff, 2X]

Verse 5:

You got nothin' to hide and everybody knows it's true
Too bad, little girl, it's all over for you... ha-ha-ha-ha

[main riff, 2X]

[repeat break riff; end cold on A]

-- another ace 60's tab from Andrew Rogers

Another one-hit wonder (hey, what's Andrew's Ace Archives for?), the
Syndicate of Sound, took this to #8 in July, 1966. For more than you
probably care to know about the history of the band, check out _Cream
Puff War_ #2, available from Sundazed. -- AWR


Soundtracks / Top Hits / One Hit Wonders / TV Themes / Song Quotes / Miscellaneous